ISO-10303-21;
HEADER;
FILE_DESCRIPTION (( 'STEP AP214' ),
    '1' );
FILE_NAME ('GCC-411325.STEP',
    '2020-02-15T10:10:34',
    ( 'China' ),
    ( 'Microsoft' ),
    'SwSTEP 2.0',
    'SolidWorks 2018',
    '' );
FILE_SCHEMA (( 'AUTOMOTIVE_DESIGN' ));
ENDSEC;

DATA;
#1 = ORIENTED_EDGE ( 'NONE', *, *, #99, .T. ) ;
#2 = PRODUCT_DEFINITION_FORMATION_WITH_SPECIFIED_SOURCE ( 'ÈÎºÎ', '', #41, .NOT_KNOWN. ) ;
#3 = AXIS2_PLACEMENT_3D ( 'NONE', #113, #75, #102 ) ;
#4 = FACE_OUTER_BOUND ( 'NONE', #121, .T. ) ;
#5 = VECTOR ( 'NONE', #42, 1000.000000000000000 ) ;
#6 =( BOUNDED_CURVE ( )  B_SPLINE_CURVE ( 3, ( #60, #50, #13, #22 ),
 .UNSPECIFIED., .F., .T. ) 
 B_SPLINE_CURVE_WITH_KNOTS ( ( 4, 4 ),
 ( 1.570796326794896558, 4.712388980384689674 ),
 .UNSPECIFIED. ) 
 CURVE ( )  GEOMETRIC_REPRESENTATION_ITEM ( )  RATIONAL_B_SPLINE_CURVE ( ( 1.000000000000000000, 0.3333333333333333703, 0.3333333333333333703, 1.000000000000000000 ) ) 
 REPRESENTATION_ITEM ( '' )  );
#7 = DIRECTION ( 'NONE',  ( 1.000000000000000000, 0.0000000000000000000, 0.0000000000000000000 ) ) ;
#8 = ORIENTED_EDGE ( 'NONE', *, *, #58, .T. ) ;
#9 = CARTESIAN_POINT ( 'NONE',  ( 50.00000000000000000, 6.123233995736766085E-15, 4.253961525412961464 ) ) ;
#10 = CARTESIAN_POINT ( 'NONE',  ( 0.0000000000000000000, 0.0000000000000000000, 0.0000000000000000000 ) ) ;
#11 = DIRECTION ( 'NONE',  ( 0.0000000000000000000, 0.0000000000000000000, 1.000000000000000000 ) ) ;
#12 =( NAMED_UNIT ( * ) SI_UNIT ( $, .STERADIAN. ) SOLID_ANGLE_UNIT ( ) );
#13 = CARTESIAN_POINT ( 'NONE',  ( 49.99999999999997868, 100.0000000000000000, 7.746038474587039424 ) ) ;
#14 = EDGE_LOOP ( 'NONE', ( #138, #128 ) ) ;
#15 = VERTEX_POINT ( 'NONE', #82 ) ;
#16 = AXIS2_PLACEMENT_3D ( 'NONE', #91, #139, #81 ) ;
#17 = SHAPE_DEFINITION_REPRESENTATION ( #124, #68 ) ;
#18 = ORIENTED_EDGE ( 'NONE', *, *, #109, .T. ) ;
#19 = CARTESIAN_POINT ( 'NONE',  ( 0.0000000000000000000, 0.0000000000000000000, 6.000000000000000000 ) ) ;
#20 = AXIS2_PLACEMENT_3D ( 'NONE', #126, #84, #114 ) ;
#21 = COLOUR_RGB ( '',0.9411764705882352811, 0.9607843137254902244, 0.9686274509803921573 ) ;
#22 = CARTESIAN_POINT ( 'NONE',  ( 50.00000000000000000, 6.123233995736766085E-15, 4.253961525412961464 ) ) ;
#23 = SURFACE_STYLE_USAGE ( .BOTH. , #78 ) ;
#24 =( NAMED_UNIT ( * ) PLANE_ANGLE_UNIT ( ) SI_UNIT ( $, .RADIAN. ) );
#25 = FACE_OUTER_BOUND ( 'NONE', #14, .T. ) ;
#26 =( NAMED_UNIT ( * ) PLANE_ANGLE_UNIT ( ) SI_UNIT ( $, .RADIAN. ) );
#27 = ORIENTED_EDGE ( 'NONE', *, *, #137, .F. ) ;
#28 = DIRECTION ( 'NONE',  ( -0.0000000000000000000, -0.0000000000000000000, -1.000000000000000000 ) ) ;
#29 = DIRECTION ( 'NONE',  ( -0.0000000000000000000, -0.0000000000000000000, -1.000000000000000000 ) ) ;
#30 = FILL_AREA_STYLE_COLOUR ( '', #21 ) ;
#31 = STYLED_ITEM ( 'NONE', ( #89 ), #122 ) ;
#32 = FILL_AREA_STYLE ('',( #30 ) ) ;
#33 = FILL_AREA_STYLE ('',( #100 ) ) ;
#34 = CIRCLE ( 'NONE', #16, 50.00000000000000000 ) ;
#35 = VERTEX_POINT ( 'NONE', #59 ) ;
#36 = ORIENTED_EDGE ( 'NONE', *, *, #130, .F. ) ;
#37 = VERTEX_POINT ( 'NONE', #9 ) ;
#38 = PRESENTATION_LAYER_ASSIGNMENT (  '', '', ( #132 ) ) ;
#39 = PLANE ( 'NONE',  #3 ) ;
#40 = DIRECTION ( 'NONE',  ( -0.0000000000000000000, -0.0000000000000000000, -1.000000000000000000 ) ) ;
#41 = PRODUCT ( 'GCC-411325', 'GCC-411325', '', ( #65 ) ) ;
#42 = DIRECTION ( 'NONE',  ( -0.0000000000000000000, -0.0000000000000000000, -1.000000000000000000 ) ) ;
#43 = CARTESIAN_POINT ( 'NONE',  ( 50.00000000000002132, -100.0000000000000000, 0.7618845762388835041 ) ) ;
#44 =( LENGTH_UNIT ( ) NAMED_UNIT ( * ) SI_UNIT ( .MILLI., .METRE. ) );
#45 = VERTEX_POINT ( 'NONE', #47 ) ;
#46 = APPLICATION_CONTEXT ( 'automotive_design' ) ;
#47 = CARTESIAN_POINT ( 'NONE',  ( -50.00000000000000000, 0.0000000000000000000, 0.0000000000000000000 ) ) ;
#48 = DIRECTION ( 'NONE',  ( -1.000000000000000000, 0.0000000000000000000, 0.0000000000000000000 ) ) ;
#49 = ADVANCED_FACE ( 'NONE', ( #119 ), #87, .T. ) ;
#50 = CARTESIAN_POINT ( 'NONE',  ( -50.00000000000002132, 100.0000000000000000, 7.746038474587039424 ) ) ;
#51 =( GEOMETRIC_REPRESENTATION_CONTEXT ( 3 ) GLOBAL_UNCERTAINTY_ASSIGNED_CONTEXT ( ( #98 ) ) GLOBAL_UNIT_ASSIGNED_CONTEXT ( ( #53, #24, #129 ) ) REPRESENTATION_CONTEXT ( 'NONE', 'WORKASPACE' ) );
#52 = ADVANCED_FACE ( 'NONE', ( #4 ), #39, .F. ) ;
#53 =( LENGTH_UNIT ( ) NAMED_UNIT ( * ) SI_UNIT ( .MILLI., .METRE. ) );
#54 =( NAMED_UNIT ( * ) PLANE_ANGLE_UNIT ( ) SI_UNIT ( $, .RADIAN. ) );
#55 = APPLICATION_CONTEXT ( 'automotive_design' ) ;
#56 = VECTOR ( 'NONE', #29, 1000.000000000000000 ) ;
#57 = MECHANICAL_DESIGN_GEOMETRIC_PRESENTATION_REPRESENTATION (  '', ( #31 ), #51 ) ;
#58 = EDGE_CURVE ( 'NONE', #15, #45, #90, .T. ) ;
#59 = CARTESIAN_POINT ( 'NONE',  ( 50.00000000000000000, 6.123233995736766085E-15, 0.0000000000000000000 ) ) ;
#60 = CARTESIAN_POINT ( 'NONE',  ( -50.00000000000000000, 0.0000000000000000000, 4.253961525412961464 ) ) ;
#61 = UNCERTAINTY_MEASURE_WITH_UNIT (LENGTH_MEASURE( 1.000000000000000082E-05 ), #116, 'distance_accuracy_value', 'NONE');
#62 = SURFACE_SIDE_STYLE ('',( #127 ) ) ;
#63 =( NAMED_UNIT ( * ) SI_UNIT ( $, .STERADIAN. ) SOLID_ANGLE_UNIT ( ) );
#64 = DIRECTION ( 'NONE',  ( 1.000000000000000000, 0.0000000000000000000, 0.0000000000000000000 ) ) ;
#65 = PRODUCT_CONTEXT ( 'NONE', #46, 'mechanical' ) ;
#66 = CLOSED_SHELL ( 'NONE', ( #101, #49, #93, #52 ) ) ;
#67 = AXIS2_PLACEMENT_3D ( 'NONE', #133, #11, #64 ) ;
#68 = ADVANCED_BREP_SHAPE_REPRESENTATION ( 'GCC-411325', ( #122, #67 ), #103 ) ;
#69 = EDGE_LOOP ( 'NONE', ( #36, #94, #8, #1 ) ) ;
#70 = PRODUCT_RELATED_PRODUCT_CATEGORY ( 'part', '', ( #41 ) ) ;
#71 = CYLINDRICAL_SURFACE ( 'NONE', #120, 50.00000000000000000 ) ;
#72 = ORIENTED_EDGE ( 'NONE', *, *, #109, .F. ) ;
#73 = PLANE ( 'NONE',  #20 ) ;
#74 = ORIENTED_EDGE ( 'NONE', *, *, #130, .T. ) ;
#75 = DIRECTION ( 'NONE',  ( 0.0000000000000000000, 0.03489949670249403724, -0.9993908270190959842 ) ) ;
#76 = CARTESIAN_POINT ( 'NONE',  ( 0.0000000000000000000, 0.0000000000000000000, 6.000000000000000000 ) ) ;
#77 = ORIENTED_EDGE ( 'NONE', *, *, #95, .T. ) ;
#78 = SURFACE_SIDE_STYLE ('',( #135 ) ) ;
#79 = APPLICATION_PROTOCOL_DEFINITION ( 'draft international standard', 'automotive_design', 1998, #55 ) ;
#80 = PRODUCT_DEFINITION_CONTEXT ( 'detailed design', #55, 'design' ) ;
#81 = DIRECTION ( 'NONE',  ( 1.000000000000000000, 0.0000000000000000000, 0.0000000000000000000 ) ) ;
#82 = CARTESIAN_POINT ( 'NONE',  ( -50.00000000000000000, 0.0000000000000000000, 4.253961525412961464 ) ) ;
#83 = AXIS2_PLACEMENT_3D ( 'NONE', #10, #115, #7 ) ;
#84 = DIRECTION ( 'NONE',  ( 0.0000000000000000000, 0.0000000000000000000, 1.000000000000000000 ) ) ;
#85 = SURFACE_STYLE_USAGE ( .BOTH. , #62 ) ;
#86 = LINE ( 'NONE', #106, #56 ) ;
#87 = CYLINDRICAL_SURFACE ( 'NONE', #96, 50.00000000000000000 ) ;
#88 = FACE_OUTER_BOUND ( 'NONE', #111, .T. ) ;
#89 = PRESENTATION_STYLE_ASSIGNMENT (( #23 ) ) ;
#90 = LINE ( 'NONE', #92, #5 ) ;
#91 = CARTESIAN_POINT ( 'NONE',  ( 0.0000000000000000000, 0.0000000000000000000, 0.0000000000000000000 ) ) ;
#92 = CARTESIAN_POINT ( 'NONE',  ( -50.00000000000000000, 0.0000000000000000000, 6.000000000000000000 ) ) ;
#93 = ADVANCED_FACE ( 'NONE', ( #25 ), #73, .F. ) ;
#94 = ORIENTED_EDGE ( 'NONE', *, *, #137, .T. ) ;
#95 = EDGE_CURVE ( 'NONE', #35, #45, #34, .T. ) ;
#96 = AXIS2_PLACEMENT_3D ( 'NONE', #19, #28, #104 ) ;
#97 = COLOUR_RGB ( '',0.9411764705882352811, 0.9607843137254902244, 0.9686274509803921573 ) ;
#98 = UNCERTAINTY_MEASURE_WITH_UNIT (LENGTH_MEASURE( 1.000000000000000082E-05 ), #53, 'distance_accuracy_value', 'NONE');
#99 = EDGE_CURVE ( 'NONE', #45, #35, #134, .T. ) ;
#100 = FILL_AREA_STYLE_COLOUR ( '', #97 ) ;
#101 = ADVANCED_FACE ( 'NONE', ( #88 ), #71, .T. ) ;
#102 = DIRECTION ( 'NONE',  ( 0.0000000000000000000, 0.9993908270190958731, 0.03489949670249403030 ) ) ;
#103 =( GEOMETRIC_REPRESENTATION_CONTEXT ( 3 ) GLOBAL_UNCERTAINTY_ASSIGNED_CONTEXT ( ( #61 ) ) GLOBAL_UNIT_ASSIGNED_CONTEXT ( ( #116, #26, #63 ) ) REPRESENTATION_CONTEXT ( 'NONE', 'WORKASPACE' ) );
#104 = DIRECTION ( 'NONE',  ( -1.000000000000000000, 0.0000000000000000000, 0.0000000000000000000 ) ) ;
#105 = CARTESIAN_POINT ( 'NONE',  ( 50.00000000000000000, 6.123233995736766085E-15, 4.253961525412961464 ) ) ;
#106 = CARTESIAN_POINT ( 'NONE',  ( 50.00000000000000000, 6.123233995736766085E-15, 6.000000000000000000 ) ) ;
#107 = UNCERTAINTY_MEASURE_WITH_UNIT (LENGTH_MEASURE( 1.000000000000000082E-05 ), #44, 'distance_accuracy_value', 'NONE');
#108 = PRODUCT_DEFINITION ( 'Î´Öª', '', #2, #80 ) ;
#109 = EDGE_CURVE ( 'NONE', #15, #37, #6, .T. ) ;
#110 = PRESENTATION_STYLE_ASSIGNMENT (( #85 ) ) ;
#111 = EDGE_LOOP ( 'NONE', ( #18, #74, #77, #125 ) ) ;
#112 = PRESENTATION_LAYER_ASSIGNMENT (  '', '', ( #31 ) ) ;
#113 = CARTESIAN_POINT ( 'NONE',  ( -50.00000000000000000, 50.00000000000000000, 6.000000000000000000 ) ) ;
#114 = DIRECTION ( 'NONE',  ( 1.000000000000000000, 0.0000000000000000000, -0.0000000000000000000 ) ) ;
#115 = DIRECTION ( 'NONE',  ( 0.0000000000000000000, 0.0000000000000000000, 1.000000000000000000 ) ) ;
#116 =( LENGTH_UNIT ( ) NAMED_UNIT ( * ) SI_UNIT ( .MILLI., .METRE. ) );
#117 = CARTESIAN_POINT ( 'NONE',  ( -50.00000000000000000, 0.0000000000000000000, 4.253961525412961464 ) ) ;
#118 = CARTESIAN_POINT ( 'NONE',  ( -50.00000000000000000, -100.0000000000000000, 0.7618845762388835041 ) ) ;
#119 = FACE_OUTER_BOUND ( 'NONE', #69, .T. ) ;
#120 = AXIS2_PLACEMENT_3D ( 'NONE', #76, #40, #48 ) ;
#121 = EDGE_LOOP ( 'NONE', ( #72, #27 ) ) ;
#122 = MANIFOLD_SOLID_BREP ( 'ÇÐ³ý-À­Éì1', #66 ) ;
#123 = MECHANICAL_DESIGN_GEOMETRIC_PRESENTATION_REPRESENTATION (  '', ( #132 ), #140 ) ;
#124 = PRODUCT_DEFINITION_SHAPE ( 'NONE', 'NONE',  #108 ) ;
#125 = ORIENTED_EDGE ( 'NONE', *, *, #58, .F. ) ;
#126 = CARTESIAN_POINT ( 'NONE',  ( 0.0000000000000000000, 0.0000000000000000000, 0.0000000000000000000 ) ) ;
#127 = SURFACE_STYLE_FILL_AREA ( #32 ) ;
#128 = ORIENTED_EDGE ( 'NONE', *, *, #95, .F. ) ;
#129 =( NAMED_UNIT ( * ) SI_UNIT ( $, .STERADIAN. ) SOLID_ANGLE_UNIT ( ) );
#130 = EDGE_CURVE ( 'NONE', #37, #35, #86, .T. ) ;
#131 = APPLICATION_PROTOCOL_DEFINITION ( 'draft international standard', 'automotive_design', 1998, #46 ) ;
#132 = STYLED_ITEM ( 'NONE', ( #110 ), #68 ) ;
#133 = CARTESIAN_POINT ( 'NONE',  ( 0.0000000000000000000, 0.0000000000000000000, 0.0000000000000000000 ) ) ;
#134 = CIRCLE ( 'NONE', #83, 50.00000000000000000 ) ;
#135 = SURFACE_STYLE_FILL_AREA ( #33 ) ;
#136 =( BOUNDED_CURVE ( )  B_SPLINE_CURVE ( 3, ( #105, #43, #118, #117 ),
 .UNSPECIFIED., .F., .F. ) 
 B_SPLINE_CURVE_WITH_KNOTS ( ( 4, 4 ),
 ( 4.712388980384689674, 7.853981633974482790 ),
 .UNSPECIFIED. ) 
 CURVE ( )  GEOMETRIC_REPRESENTATION_ITEM ( )  RATIONAL_B_SPLINE_CURVE ( ( 1.000000000000000000, 0.3333333333333333703, 0.3333333333333333703, 1.000000000000000000 ) ) 
 REPRESENTATION_ITEM ( '' )  );
#137 = EDGE_CURVE ( 'NONE', #37, #15, #136, .T. ) ;
#138 = ORIENTED_EDGE ( 'NONE', *, *, #99, .F. ) ;
#139 = DIRECTION ( 'NONE',  ( 0.0000000000000000000, 0.0000000000000000000, 1.000000000000000000 ) ) ;
#140 =( GEOMETRIC_REPRESENTATION_CONTEXT ( 3 ) GLOBAL_UNCERTAINTY_ASSIGNED_CONTEXT ( ( #107 ) ) GLOBAL_UNIT_ASSIGNED_CONTEXT ( ( #44, #54, #12 ) ) REPRESENTATION_CONTEXT ( 'NONE', 'WORKASPACE' ) );
ENDSEC;
END-ISO-10303-21;
